» » Black Flag - Fix Me аккорды

Black Flag - Fix Me аккорды

Black Flag - Fix Me аккорды и слова для гитары. Другие песни с аккордами исполнителя Black Flag.

INTRO
A5          B5           A5       C5     C5
1  &  2  &  3  &  4  &   1  &  2  &  3  &  4  &
e:------------------------|-----------------------
B:------------------------|-----------------------
G:------------------------|-----------------------
D:7--7--7--7--9--9--9--9--|7--7--7--10-----10-----
A:7--7--7--7--9--9--9--9--|7--7--7--10-----10-----
E:5--5--5--5--7--7--7--7--|5--5--5---8------8-----
this goes for both the verses play 6x go into chorus
CHORUS
D5                       E5
1  &  2  &  3  &  4  &   1  &  2  &  3  &  4  &
e:------------------------|---------------------------
B:------------------------|---------------------------
G:------------------------|---------------------------
D:12------12------12------|14------14------14---------
A:12------12------12------|14------14------14---------
E:10------10------10------|12------12------12---------

e:------------------------|---------------------------
B:------------------------|---------------------------
G:------------------------|---------------------------
D:14----12----10-12-10----|14----12----10-12-10-------
A:14----12----10-12-10----|14----12----10-12-10-------
E:12----10-----8-10--8----|12----10-----8-10--8-------
OUTRO
e:-------
B:-------
G:-------
D:7------
A:7------
E:4------

Black Flag - Fix Me клип