» » Black Keys - Set You Free аккорды

Black Keys - Set You Free аккорды

Black Keys - Set You Free аккорды и слова для гитары. Другие песни с аккордами исполнителя Black Keys.

/ = slide
~ = vibrato
^ = bend
h = hammer on
p = pull off
t = thumb


E  :-----------------------------------------5--------------------------
B  :-----------------------------------------5---------------6-b8-r6----
G  :-----------------5-5-*-----3-5--5-*-2-2-x5---------5-5-*------------
D  :-----------------5-5-*-3-5----------2-2-x----------5-5-*------------
A  :-----------------3-3-*--------------0-0-x0---------3-3-*------------
E  :--------------------------------------------------------------------


E  :--------5----------------------8-----------5----------------------8-
B  :--------5----------------------8-----------5----------------------8-
G  :---2-2-x5---------5-5-*-10-b12--------2-2-x5---------5-5-*-10-b12---
D  :---2-2-x----------5-5-*---------------2-2-x----------5-5-*----------
A  :---0-0-x0---------3-3-*---------------0-0-x0---------3-3-*----------
E  :--------------------------------------------------------------------

Run a mile..
E  :----------5---------------------------------------------------------
B  :----------5---------------------------------------------------------
G  :-----2-2-x5-------------5-5-*----------2-2-x----------5-5-*---------
D  :-----2-2-x--------------5-5-*----------2-2-x----------5-5-*---------
A  :-----0-0-x0-------------3-3-*----------0-0-x----------3-3-*---------
E  :------------------------3-3------------0-0------------3-3-----------

Let em' go..                   x2
E  :--------------------------------------------------------------------
B  :----3-------5-------1-------3-------3-------5-------1-------3-------
G  :----4-------5-------2-------4-------4-------5-------2-------4-------
D  :----5-------7-------3-------5-------5-------7-------3-------5-------
A  :----5-------7-------3-------5-------5-------7-------3-------5-------
E  :3-3---0-5-5---0-1-1---0-3-3---0-3-3---0-5-5---0-1-1---0-3-3---------

Outro
E  :------------------------------------|
B  :------------------------------------|
G  :------------------------------------|
D  :-----5-5-5-5-5-5-5-5-2-2-2-2-2-2-2-2|
A  :-----3-3-3-3-3-3-3-3-0-0-0-0-0-0-0-0|
E  :------------------------------------|

That should be enough for you to figure out the rest.

Black Keys - Set You Free клип