» » Bowling For Soup - Hit Me Baby One More Time аккорды

Bowling For Soup - Hit Me Baby One More Time аккорды

Bowling For Soup - Hit Me Baby One More Time аккорды и слова для гитары. Другие песни с аккордами исполнителя Bowling For Soup.

Artist: Bowling for Soup
Title: Hit Me Baby Оnе More Time
From: Freaky Friday
Tabbed By: maestro

intro                      (x2)
e|-------------------------------|
B|-------------------------------|
G|--4-----------7----------------|
D|--4(x8)-4-----7(x8)-2-----4----|
A|--2-----4(x8)-5-----2(x4)-4(x4)|
E|--------2-----------О-----2----|

1st time clean, second time with distortion


verse
e|---------------------------------------------|
B|---------------------------------------------|
G|--4-------------7----------------------------|
D|--4(hold)-------7(x8)--2--------4------------|
A|--2-------------5------2(x4)----4(x4)--------|
E|-----------------------О--------2------------|
Он baby...know    somethin... right here

e|---------------------------------------------|
B|---------------------------------------------|
G|--4-------------------7----------------------|
D|--4(x8)-------4-------7(x8)-2-----4----------|
A|--2-----------4(x8)---5-----2(x4)-4(x4)------|
E|--------------2-------------О-----2----------|
Он baby...shouldn't...go...now...out of sight


prechorus
e|---------------------------------------------|
B|---------------------------------------------|
G|--4-------------------7----------------------|
D|--4(x8)-------4-------7(x8)-2--------4-------|
A|--2-----------4(x8)---5-----2(x4)----4(x4)---|
E|--------------2-------------О--------2-------|
show me...  to be...baby...know... because


chorus
e|---------------------------------------------|
B|---------------------------------------------|
G|--4---------------------7--------------------|
D|--4(x8)-------4---------7(x8)----2-----4-----|
A|--2-----------4(x8)-----5--------2(x4)-4(x4)-|
E|--------------2------------------О-----2-----|
loneliness...killing...I must...still believe

e|---------------------------------------------|
B|---------------------------------------------|
G|--4-------------------7-------9-------------|
D|--4(x8)-------4-------7(x8)---9-------------|
A|--2-----------4(x8)---5-------7-------------|
E|--------------2------------------------------|
when I'm...my mind...sign...hit me..more time


verse 2
e|---------------------------------------------|
B|---------------------------------------------|
G|--4-------------------7----------------------|
D|--4(x8)-------4-------7(x8)-2-----4----------|
A|--2-----------4(x8)---5-----2(x4)-4(x4)------|
E|--------------2-------------О-----2----------|
baby, baby...reason...    girl...blinded

e|---------------------------------------------|
B|---------------------------------------------|
G|--44-4-44-4-----------77-7-77-7--------------|
D|--44-4-44-4-44-4-44-4-77-7-77-7-2-----4------|
A|--22-2-22-2-44-4-44-4-55-5-55-5-2(x4)-4(x4)--|
E|------------22-2-22-2-----------О-----2------|
...baby... would do...      not...planned it


-prechorus
-chorus

bridge part
e|---------------------------------------------|
B|---------------------------------------------|
G|--4-------------4----------------------------|
D|--4(x8)--4------4(x8)--4---------------------|
A|--2------4(x8)--2------4(x8)-----------------|
E|---------2-------------2---------------------|


e|---------------------------------------------|
B|---------------------------------------------|
G|--4-------------7----------------------------|
D|--4(x8)--4------7(x8)---2--------4-----------|
A|--2------4(x8)--5-------2(x4)----4(x4)-------|
E|---------2--------------О--------2-----------|
Он baby...was...know

e|---------------------------------------------|
B|---------------------------------------------|
G|-------------------4-------------------------|
D|--5------7---------4(x8)--2------4-----------|
A|--5(x8)--7(x8)-----2------2(x4)--4(x4)-------|
E|--3------5----------------О------2-----------|
baby...shouldn't...go           I must confess


chorus
e|---------------------------------------------|
B|---------------------------------------------|
G|--4---------------------7--------------------|
D|--4(x8)-------4---------7(x8)----2-----4-----|
A|--2-----------4(x8)-----5--------2(x4)-4(x4)-|
E|--------------2------------------О-----2-----|
loneliness...killing...now...know...believe

e|---------------------------------------------|
B|---------------------------------------------|
G|---------------------------------------------|
D|--5------7------5-------2-------4------------|
A|--5(x8)--7(x8)--5(x8)---2(rest)-4(rest)------|
E|--3------5------3-------О-------2------------|
...be...here...sign...hit me...one more time

e|---------------------------------------------|
B|---------------------------------------------|
G|--4---------------------7--------------------|
D|--4(x8)-------4---------7(x8)----2-----4-----|
A|--2-----------4(x8)-----5--------2(x4)-4(x4)-|
E|--------------2------------------О-----2-----|
my loneliness...killing...I...still...believe

e|---------------------------------------------|
B|---------------------------------------------|
G|--4-------------------7-------9-------------|
D|--4(x8)-------4-------7(x8)---9-------------|
A|--2-----------4(x8)---5-------7-------------|
E|--------------2------------------------------|
when I'm...my mind...sign...hit me..more time

That's it that's all
Questions/comments, whatever, email me: [email protected]

Bowling For Soup - Hit Me Baby One More Time клип