» » Children Of Bodom - Something Wild аккорды

Children Of Bodom - Something Wild аккорды

Children Of Bodom - Something Wild аккорды и слова для гитары. Другие песни с аккордами исполнителя Children Of Bodom.

IN THE SHADOWS

from: CHILDREN OF BODOM
SOMETHING WILD

|--------------|
|--------------|
|--------------|
|--2--2--2--2--|
|--2--2--2--2--|
|--0--0--0--0--|

|---------------------------------------------------|
|---------------------------------------------------|
|--10...-9...-7...-9..-10..-------------------------|
|---------------------------------------------------|
|---------------------------8...-7...-5...-7..-8..--|
|---------------------------------------------------|

|-----------------|
|-----------------|
|--7--7-10--9--7--|
|--7--7-10--9--7--|
|--5--5-8---7--5--|
|-----------------|

|------------------------------|
|------------------------------|
|--10-9--7--9-10---------------|
|----------------8--7--5--7-8--|
|--8--7--5--7-8----------------|
|----------------6--5--3--5-6--|  --> not sure about this

|--------------------------------|
|--------------------------------|
|--------------------------------|
|-------9-10--9-7----7-----------|
|--/7-7-----------10--10-10-8---|
|--------------------------------|

|-----------------------------|
|-----------------------------|
|--------------------------4--|
|-----------22----------22----|
|-------------2---------------|
|--0-000033-----0-000033------|

Children Of Bodom - Something Wild клип