» » Chevelle - Open аккорды

Chevelle - Open аккорды

Chevelle - Open аккорды и слова для гитары. Другие песни с аккордами исполнителя Chevelle.

--------------------------------------------------------------------------------
Open - Chevelle
--------------------------------------------------------------------------------

Tabbed by: dustind
Email: [email protected]

Tuning: D-standard

Intro: Palm muted [Play this slightly scraping your pick...]
|----------------|
|----------------|
|----------------|
|----------------|
|----------------|
|-1-1-1-1-1-1-1-1|

Then the next part goes as follows:
|----------------|
|----------------|
|-11-11-11-11-11-|
|--x--x--x--x--x-|
|--9--9--9--9--9-|
|----------------|

Then this part comes in...
|----------------|
|----------------|
|----------------|
|-2-2-2-2-2-2-x--|< This part sounds best when muted with your hand.
|-2-2-2-2-2-2-x--|
|-0-0-0-0-0-0-x--|

Okay! Thats it the whole song 100%. Email me if you have any suggestions.

Chevelle - Open клип