» » Ellie Goulding - Roscoe аккорды

Ellie Goulding - Roscoe аккорды

Ellie Goulding - Roscoe аккорды и слова для гитары. Другие песни с аккордами исполнителя Ellie Goulding.

Tabbed by: Gav
Tuning: Standard
Capo on 7

Em               D                C
e|---------------------------------------------------------------------------|
B|---3-3---0-0---3-3---0-0---3-3---3-3---3-3--30-0---1---1---1-1---1---------|
G|---0-----0-----0-----0-----2-----2-----2----2------0-------0-----0---------|
D|---22----22----22----22---000---000---000---0-----20h22---222---20h2-------|
A|--2-----2-----2-----2----0-----0-----0-----0--0--3-------3-----3-----------|
E|-0-----0-----0-----0-------------------------------------------------------|
ttsti ttsti

e|---------------------------------------------------------------------------|
B|--1000---------------------------------------------------------------------|
G|--0-0----------------------------------------------------------------------|
D|--2-0----------------------------------------------------------------------|
A|-3-------------------------------------------------------------------------|
E|---------------------------------------------------------------------------|

Then the strumming bit:
e|-----------------------------222---333---2220h220--------------------------|
B|---333---000----333---000----333---333---3333--30---1--11-----11----1-11---|
G|---000---000----000---000--22222-22222-222222--20-000--00-000-00--000-00---|
D|-22222-22222--22222-22222--00000-00000-000000-----220h222-220h22--220h22---|
A|-22222-22222--22222-22222--00----00----0----------33------33------33-------|
E|-00----00-----0-----00-----------------------------------------------------|

Ellie Goulding - Roscoe клип