» » Eminem - 3 am аккорды

Eminem - 3 am аккорды

Eminem - 3 am аккорды и слова для гитары. Другие песни с аккордами исполнителя Eminem.

Intro:
e|----------------|
B|----------------|
G|----------------|
D|--3--5--6--0--6-|
A|--3--5--6--0--6-|
D|--3--5--6--0--6-|

Main Riff:
e|--------------------------------------------------------|
B|--------------------------------------------------------|
G|--------5p4h5--------5p4h5--------5p4h5---------5p4h5p4-|
D|---7-7----------7-7---------7-7----------7-7------------|
A|---7-7----------7-7---------7-7----------7-7------------|
D|---7-7----------7-7---------7-7----------7-7------------|
PM   * *          * *         * *          * *
(Some vibrato on the g string there, especially the last little bit)

Variantion Riff (Beginning of the Second Verse):
e|--------------------------------|
B|--------------------------------|
G|--------------------------------|
D|----7-7---7-7---7-7---7-7---5/--|
A|----7-7---7-7---7-7---7-7---5/--|
D|----7-7---7-7---7-7---7-7---5/--|
PM    * *   * *   * *   * *

Chorus/Outro:
e|------------------------------------------------------|
B|------------------------------------------------------|
G|------------------------------------------------------|
D|---7-7-9-10---10-10-12-14---14-12-10-10---15-15-15-14-|
A|---7-7-9-10---10-10-12-14---14-12-10-10---15-15-15-14-|
D|---7-7-9-10---10-10-12-14---14-12-10-10---15-15-15-14-|

e|---------------------|
B|---------------------|
G|---------------------|
D|---10-10-9-7--7-7-7--|
A|---10-10-9-7--7-7-7--|
D|---10-10-9-7--7-7-7--| 

Eminem - 3 am клип