» » Children Of Bodom - Hatebreeder аккорды

Children Of Bodom - Hatebreeder аккорды

Children Of Bodom - Hatebreeder аккорды и слова для гитары. Другие песни с аккордами исполнителя Children Of Bodom.

HATEBREEDER
from: CHILDREN OF BODOM
HATEBREEDER

Tune down one whole step to D!

solo:
pm.					   	   		pm.							  pm.
|---------------------------------------------------15------17------------17------19---|
|-----------10------13--10-------sl.--------15----------17------17----17------17-------|
|--10---10------10----------10--10/12---12------12-------------------------------------|
|--------------------------------------------------------------------------------------|
|--------------------------------------------------------------------------------------|
|--------------------------------------------------------------------------------------|
Ѕ
)		   	   full
/  		     )
|------19-----17--------/-----17----20-17-19-20-19-17---------------------------------|
|--17-------------20--20-------------------------------20-17-19-20-19-17---------------|
|------------------------------------------------------------------------21-17-19-21---|
|--------------------------------------------------------------------------------------|
|--------------------------------------------------------------------------------------|
|--------------------------------------------------------------------------------------|
1Ѕ 1Ѕ	1Ѕ 1Ѕ
)  )	 )	)
/ / / /
|---------------------------------------------------17--19--20--22--24--24-------------|
|--------------------------------------------------------------------------------------|
|--19-17------------------------17--21------17--21-------------------------------------|
|--------21-17-19-21-19-17--19----------19---------------------------------------------|
|--------------------------------------------------------------------------------------|
|--------------------------------------------------------------------------------------|

continued after synth:

dive    full		 full	   full		 full	  sl. 	sl.
|--w/bar------)---17----)---17----)---17----)---17------/-17-15-13--------sl.---------|
|------------/-17------/-17------/-17------/-17---------------------17-15-1310--------|
|--2------19--------19--------19--------19-------------------------------------12-10--|
|-------------------------------------------------------------------------------------|
|-------------------------------------------------------------------------------------|
|--------------------------------------------------------------------------------------|

pm..........................
|--------------------------------------------------------------------------------------|
|---sl.-----------------------------------------------------------------------------13-|
|--9---7-----------------------------------------9------10--9--12--10--14--12--14-----|
|---------10-9-7--------sl.--------10--9--12--10-----12--------------------------------|
|----------------10-8-10-/---12--------------------------------------------------------|
|--------------------------------------------------------------------------------------|

a.h.
|--15----------15----------------15-16-17-19-17-16-15----------------15----15-17~~-----|
|-----15-16-17----17-16-15-16-17----------------------17-16-15-16-17----17-------------|
|--------------------------------------------------------------------------------------|
|--------------------------------------------------------------------------------------|
|--------------------------------------------------------------------------------------|
|--------------------------------------------------------------------------------------|

Children Of Bodom - Hatebreeder клип