» » Cradle Of Filth - For Those Who Died аккорды

Cradle Of Filth - For Those Who Died аккорды

Cradle Of Filth - For Those Who Died аккорды и слова для гитары. Другие песни с аккордами исполнителя Cradle Of Filth.

For Those Who Died (Return To The Sabbat Mix) - Cradle Of Filth

From the CD:  Love Craft And Witch Hearts

Tabbed by: RUSTDOGG666
Email: [email protected]

Tuning: Down one step (DGCFAD)


LEAD IN	RIFF A1
|-----------|-------------------------------------------------------|
|-----------|-------------------------------------------------------|
|-----------|-------------------------------------------------------|
|-----------|-----5---4---4-------5---4---4-------5---7-/-9---9---9-|
|-----2---2-|-----5---5---5-------5---5---5-------5---5-/-7---7---7-|
|-0-000---0-|-000------------000-------------000--------------------|
. ..        ...            ...             ...

-> LEAD IN and RIFF A1 x 1

RIFF A2
|---------------------------------------------------------------------|
|---------------------------------------------------------------------|
|---------------------------------------------------------------------|  GTR 1
|-------------------5---4---4-------5---4---4-------5---7-/-9---9---9-|
|-2-2---2---2-------5---5---5-------5---5---5-------5---5-/-7---7---7-|
|-0-0---0---0--000-------------000-------------000--------------------|
| . .          ...             ...             ...                    |
|                                                                     |
|-----------------------------------------------------------------12-|
|--------------------------------------------------------------12-----|
|-------------------------------------------------------9-12-9--------|  GTR 2
|---------------------------------------------------------------------|
|---------------------------------------------------------------------|
|---------------------------------------------------------------------|

-> RIFF A2 with both gtrs x 1
-> RIFF A2 with GTR 1 x 2 (ending on/sustaining 1st 9-7 chord on 2nd time)


RIFF B
|---------------------|----|-----------------|
|---------------------|----|-----------------|
|---------------------|-x3-|-----------------|
|---------4---5p2p4p0-|----|-------------5---|
|---------5-----------|----|-7-6-7-6-7-6-5---|
|-0--000--------------|----|-5-4-5-4-5-4-----|
.   .                      . . . . . .

-> RIFF B x 4


RIFF C
|-----------------3-------3-----------------------------------------|
|-----------------3---------3---------------------------------------|
|-----------------5-----------5-------------------4-----------------|
|-4---------------5---------------4---------------4-------3---------|
|-4---------------3---------------4---------------2-------3---------|
|-2---------------3---------------2-----------2222----11111---1111--|
....    ....    ....

-> RIFF C x 2


RIFF D:

RIFF D1                           ADD D1
|---------------------------------|---------------------------------|
|---------------------------------|---------------------------------|
|---------------------------------|---------------------------------|
|-----------------------------54-|-------------------------3---3---|
|-----4------4----4-----4-----32-|-----4------4----4-------1---1---|
|-22222--2222222222-22222-2-2-----|-22222--2222222222--2222---------|
....   .... ....  ....  . .       ....   .........   ....

ADD D2
|---------------------------------|
RIFF D1 x 1                  |---------------------------------|
ADD D1  x 1                  |---------------------------------|
RIFF D1 x 1                  |---------------54-------3---3---|
ADD D2  x 1                  |------54------32-------1---1---|
|-0000-32-0-0------0-0-0---------|
....     . .      . . .

-> RIFF D x 2


RIFF E:

RIFF E1                           ADD E1
|---------------------------------|---------------------------------|
|---------------------------------|---------------------------------|
|---------------------------------|---------------------------------|
|-6-----3-------------------------|-7-----8-------------------------|
|-6-----3-----3-333-333-333-333-3-|-7-----8-----8-888-888-888-888-8-|
|-4-----1-----1-111-111-111-111-1-|-5-----6-----6-666-666-666-666-6-|
. ... ... ... ... .               . ... ... ... ... .

ADD E2
|---------------------------------|
|---------------------------------|
RIFF E1 x 1                  |---------------------------------|
ADD E1  x 1                  |-8-----9-------------------------|
RIFF E1 x 1                  |-6-----7-----2-222-222-222-222-2-|
ADD E2  x 1                  |-6--0--7-----0-000-000-000-000-0-|
RIFF E1 x 1                       .        . ... ... ... ... .
ADD E1  x 1
RIFF E1 x 1                    ADD E3
ADD E3  x 1                  |---------------------------------|
|---------------------------------|
|-------4-------------------------|
|-8-----4-------------------------|
|-6-----2-------------------------|
|-6--0----------------------------|
.


-> RIFF E x 1

-> Slide up+down (2 gtrs)
GTR 1: D String: |-2/-3/4-5/-6/7-13/-14-/15/16/17-|
GTR 2: D String: |-10----------------------------|

-> RIFF B x 4

-> RIFF C x 2

-> RIFF D x 2

-> RIFF E x 1


FILL 1
|-----------------|
|-----------------|
|-11-11-11-11-11--|
|--9--9--9--9--9--|
|--9--9--9--9--9--|
|-----------------|

-> FILL 1 x 1

-> RIFF A2 with grt 1  x 1
-> RIFF A2 with both gtrs  x 1
-> RIFF A2 with GTR 1 x 2 (ending on/sustaining 1st 9-7 chord on 2nd time)


FILL 2
|-----------------|
|-----------------|
|-----------------|
|-----------------|
|-4-5-2-----------|
|-2-3-0-----------|
. . .

-> FILL 2 x 1


FILL 3
|-----------------|
|-----------------|
|-----------------|
|-----------------|
|-----4-----------|
|-22222-----------|
....

-> FILL 3 x 1


RIFF F (Solo riff 1)
|-----------------|----|
|-----------------|----|
|-----------------|-x7-|
|-----------------|----|
|-444-----444-----|----|
|-222-----222-----|----|
...     ..

-> RIFF F x 1


FILL 4
|---------------------------------------------------------|
|---------------------------------------------------------| let ring
|---------------------------------------------------------| 7 beats,
|-2-------------------------------------------------------| FILL 2 on
|-2-------------------------------------------------------| eighth
|-0-------------------------------------------------------|

-> FILL 4 x 1

-> FILL 2 x 1


RIFF G (Solo riff 2)
|-----------------------------------------------------------------|
|-----------------------------------------------------------------|
|-----------------------------------------------------------------|
|-----------------------------------------------------------------|
|-----4-------4-------4-------4-------4-------4-------4-------4---|
|-22222-2222222-2222222-2222222-2222222-2222222-2222222-2222222---|
....  ......  ......  ......  ......  ......  ......  ......

-> RIFF G x 1
-> FILL 4 x 1    > x 3
-> FILL 2 x 1   /


RIFF H (Solo riff 3)
|-----------------2-------------------------------8---------------|
|-----------------2-------------------------------8---------------|
|---------------------------------5-5-5-5-5-5-5-5---------5-5-5-5-|
|-4-4-4-4-4-4-4-4---------4-4-4-4-5-5-5-5-5-5-5-5---------5-5-5-5-|
|-4-4-4-4-4-4-4-4---------4-4-4-4---------------------------------|
|-----------------------------------------------------------------|


|-----------------2-----------------------7---------------1-------|
|-----------------2-----------------------7---------------1-------|
|---------------------------------4-4-4-4-------------------------|
|-4-4-4-4-4-4-4-4---------4-4-4-4-4-4-4-4---------3-3-3-3---------|
|-4-4-4-4-4-4-4-4---------4-4-4-4-----------------3-3-3-3---------|
|-----------------------------------------------------------------|


-> RIFF H x 2


SOLO:

|-------------------------------------------14-------------------------------|
|-15b~----15b~----15b~----(15)b~---14-15-17----17-15-15p14h17h19-15p14h17h19-|
|-(1/2)---(1/2)---(1/2)---(1/2)----------------------------------------------|
|----------------------------------------------------------------------------|
|----------------------------------------------------------------------------|
|----------------------------------------------------------------------------|

tr tr tr
(2)(2)(2)
|-19p18-16-14-16-14-12-14-12-11-12-11-9h11-9---8--9--8--6--8--6--5~-------|
|-------------------------------------------------------------------------|
|-------------------------------------------------------------------------|
|-------------------------------------------------------------------------|
|-------------------------------------------------------------------------|
|-------------------------------------------------------------------------|


|-----------------------------------------------------------------|
|-----------------------------------------------------------------|
|-b~----------15~-------------b~----------~----------|
|-full----------------------------(1/2)---------------------------|
|-----------------------------------------------------------------|
|-----------------------------------------------------------------|


|-24------23--21--23-----21--19--21------19--21---23p21p19-21~----|
|-----------------------------------------------------------------|
|-----------------------------------------------------------------|
|-----------------------------------------------------------------|
|-----------------------------------------------------------------|
|-----------------------------------------------------------------|


|-21----------20----------19----------18----------17--------------|
|-----19--18------18--17------17--16------16--15------15--14--13--|
|-----------------------------------------------------------------|
|-----------------------------------------------------------------|
|-----------------------------------------------------------------|
|-----------------------------------------------------------------|


|-----------------------------------------------------------------|
|-----------------------------------------------------------------|
|-14~---------------------------------------------------------/---|
|-----------------------------------------------------------------|
|-----------------------------------------------------------------|
|-----------------------------------------------------------------|

tr tr tr tr tr tr tr
|-------------------------------------------------------------------------|
|---------------------15-17p15--15-17-18p17--17-18-20-17-18-20-18-17-18-20|
|-1414-16-17-14-16-17---------17-----------19-----------------------------|
|-------------------------------------------------------------------------|
|-------------------------------------------------------------------------|
|-------------------------------------------------------------------------|


Note: *'s are used for neater spacing / making the tab less tricky to play.
They may be replaced as follows:

T*       T*       T*       T*
e.g. 19p16p13-19p16p13-19p16p13-19p16p13-

T           T           T
-->  16h19p16p13-16h19p16p13-16h19p16p13-16h19p16-


*        *        *        *
|-21p18p15-21p18p15-21p18p15-21p18p15-18p15p12-18p15p12-18p15p12-18p15p12-|
|-------------------------------------------------------------------------|
|-------------------------------------------------------------------------|
|-------------------------------------------------------------------------|
|-------------------------------------------------------------------------|
|-------------------------------------------------------------------------|


T        T        T        T        T        T*       T*       T*
|-10p7p4---10p7p4---10p7p4---10p7p4-/-13p10p7--13p10p7--13p10p7--13p10p7/-|
|-------------------------------------------------------------------------|
|-------------------------------------------------------------------------|
|-------------------------------------------------------------------------|
|-------------------------------------------------------------------------|
|-------------------------------------------------------------------------|


T        T        T        T        T*       T*       T*       T*
|-16p13p10-16p13p10-16p13p10-16p13p10-19p16p13-19p16p13-19p16p13-19p16p13-|
|-------------------------------------------------------------------------|
|-------------------------------------------------------------------------|
|-------------------------------------------------------------------------|
|-------------------------------------------------------------------------|
|-------------------------------------------------------------------------|


|-19--15----------------------------------------------------------|
|---------17--------------------------------------------------17--|
|-------------16----------------------------------16--17--19------|
|-----------------17--16------------------17--19------------------|
|-------------------------19--17--19--19--------------------------|
|-----------------------------------------------------------------|


T        T        T        T        T        T        T        T
|-18p15p10-18p15p10-18p15p10-18p15----15p12p7--15p12p7--15p12p7--15-------|
|-------------------------------------------------------------------------|
|-------------------------------------------------------------------------|
|-------------------------------------------------------------------------|
|-------------------------------------------------------------------------|
|-------------------------------------------------------------------------|


T        T        T        T        T        T        T        T
|-20p17p12-20p17p12-20p17p12-20p17p12-18p15p10-18p15p10-18p15p10-18p15p10-|
|-------------------------------------------------------------------------|
|-------------------------------------------------------------------------|
|-------------------------------------------------------------------------|
|-------------------------------------------------------------------------|
|-------------------------------------------------------------------------|


T        T        T        T        T        T        T        T
|-20p17p12-20p17p12-20p17p12-20p17p12-22p19p14-22p19p14-22p19p14-22p19----|
|-------------------------------------------------------------------------|
|-------------------------------------------------------------------------|
|-------------------------------------------------------------------------|
|-------------------------------------------------------------------------|
|-------------------------------------------------------------------------|


tr(4)    tr(4)    tr(3)    tr(3)    tr(4)    tr(3)    {   3   }{   3   }
|-23-------22-------20-------19-------17-------15-------17-15-14-15-14----|
|----------------------------------------------------------------------15-|
|-------------------------------------------------------------------------|
|-------------------------------------------------------------------------|
|-------------------------------------------------------------------------|
|-------------------------------------------------------------------------|


Dip tremolo bar and hit harmonic
|-------------------------------------------------/--/////--|
|-17~------------/----------/--------------/--/--/------------|
|-----------15--/----------/----------/--/--/-----------------|
|-----------NH-/----------/------/--/--/----------------------|
|--------------------///------/--/---------------------------|
|-----------------------------------------------------------------|


RIFF I
|-----------------------------------------------------------------|
|-----------------------------------------------------------------|
|-----------------------------------------------------------------|
|-----------------------------------------------------------------|
|---------2h3p2p0---------3~--------------2h3p2p0---------1~------|
|-000-------------000-------------000-------------000-------------|
...             ...             ...             ...

-> RIFF I x 6

-> RIFF B x 4

-> RIFF C x 2

-> RIFF D x 2

-> RIFF E x 1


RIFF J
|-----------------------------|
|-----------------------------|
|-----------------------------|
|-4---5---4---2---------------|
|-2---3---2---0---5---4---2---|
|-----------------3---2---0---|
.   .   .   .   .   .   .

-> RIFF J x 1

END

Cradle Of Filth - For Those Who Died клип