» » BisRock - Sikwate аккорды

BisRock - Sikwate аккорды

BisRock - Sikwate аккорды и слова для гитары. Другие песни с аккордами исполнителя BisRock.

Intro: E - C#m - A - Bm
e|-12-12--------12-----14-14--------------12-----12-------------14----14/17--12-|
B|-------14--14----14--------12--12-10-10-----10----10-10/12-12----12-----------|
G|------------------------------------------------------------------------------|(play it with
D|------------------------------------------------------------------------------|  chords)
A|------------------------------------------------------------------------------|
E|------------------------------------------------------------------------------|

Verse:
E          C#m      A       B
Sayo sa kadlawon si lolo nibangon
E           C#m    A        B
Namukaw ni lola kay siya mag patimpla
E          C#m            A         B
Sikwati iyang gi-ingon kay lami kunong higupon
E        C#m     A       B
Tiyan init na humot pa gyud sa gihawa

Refrain:
G#m               A
Karon nag sige’g handum si lolo
G#m            A
Sa skwati na init kaayo
G#m             A
Ang iyaha ra gyung ika-istorya
F#m                   B
Paborito nya ang sikwati ni lola

Chorus:
E       C#m      A        B
Ambot og ngano sikwati lami kaayo
E       C#m        A          B
Lami tila tila-an tunlon paiinit sa tiyan
E         C#m        A       B
Walay bidli higupon mao nay giingon
E          C#m         A       B
Napakasarap kuya eddie ang maadik sa sikwati

Verse:
Tungang gabii si kuya nag-ngisi
Nag damgo ang kuya ko nga macho
Nibangon si ate nagtimpla og sikwati
Lima ka baso giparis sa puto

Refrain:
Si kuya kataw-anan kaayo
mag yaw-yaw sikwat na nag aso aso
Bisan pag tunga nang gabii
Muhigup gyud sya sa sikwati ni ate

Chorus:
Ambot og ngano sikwati lami kaayo
Lami tila tila-an tunlon paiinit sa tiyan
Walay bidli higupon mao nay giingon
Napakasarap kuya eddie ang maadik sa sikwati

Verse:
Sa dili pa mag-uma ang akong idol na papa
Way laing sekrito si papa nga gwapo
Ang lamian ra na sikwati ni mama
Sustansyado kundisyon kaayo

Refrain:
Karon si papa aktibo kaayo
Bahala kuno magbuntag og daro
Basta naay sikwati ok na
Hilabi na kong sikwati ni mama

Chorus:
Ambot og ngano sikwati lami kaayo
Lami tila tila-an tunlon paiinit sa tiyan
Walay bidli higupon mao nay giingon
Napakasarap kuya eddie ang maadik sa sikwati

Ablib: E - C#m - A - B }x2
G#m - A }x3
F#m - B

Guitar solo:
e|-12-12--------12-----14-14--------------12-----12-------------14----14--12-|
B|-------14--14----14--------12--12-10-10-----10----10-10-12----12-----------|
G|---------------------------------------------------------------------------|2x
D|---------------------------------------------------------------------------|
A|---------------------------------------------------------------------------|
E|---------------------------------------------------------------------------|

e|-12-12-12-12-15-15-13-13-13-13-15-15-12-12-12-12-15-15-13-13-13-13-15-15-|
B|-------------------------------------------------------------------------|
G|-------------------------------------------------------------------------|
D|-------------------------------------------------------------------------|
A|-------------------------------------------------------------------------|
E|-------------------------------------------------------------------------|

e|-12-12-12-12-15-15-13-13-13-13-15-15-10-10-10-10-15-15-15-15-15-15-15-|
B|----------------------------------------------------------------------|
G|----------------------------------------------------------------------|
D|----------------------------------------------------------------------|
A|----------------------------------------------------------------------|
E|----------------------------------------------------------------------| 

BisRock - Sikwate клип