» » Bowie David - Man Who Sold The World аккорды

Bowie David - Man Who Sold The World аккорды

Bowie David - Man Who Sold The World аккорды и слова для гитары. Другие песни с аккордами исполнителя Bowie David.

Intro:
A                   Dm                  F
E|----------------------------------------------------------------|
B|----------------------------------------------------------------|
G|--2-2-2-0-2-3-2-0-----2-2-2-0-2-3-2-0-----2-2-2-0-2-3-2-0-------|
D|----------------------------------------------------------------|
A|----------------------------------------------------------------|
E|----------------------------------------------------------------|

Dm                           A7                  Dm
We passed upon the stairs, We spoke of was and when
A7                       F
Although I wasn't there, he said i was his friend
C                Gm A
Which came as some surprise, I spoke into his eyes
Dm                    C (Riff 1)
I thought you died alone, a long long time ago
C (Riff 1)   F (Riff 2)
Oh no,    not me
Bbm             F (Riff 2)
I never lost control
C (Riff 1) F
Your'e face  to face
Bbm              A
with the man who sold the world

A                   Dm                  F
E|----------------------------------------------------------------|
B|----------------------------------------------------------------|
G|--2-2-2-0-2-3-2-0-----2-2-2-0-2-3-2-0-----2-2-2-0-2-3-2-0-------|
D|----------------------------------------------------------------|
A|----------------------------------------------------------------|
E|----------------------------------------------------------------|

Dm                           A7                  Dm
I laughed and shook his hand, and made my way back home
A7                       F
I searched for form and land, for years and years i roamed
C                Gm A
I gazed a gazely stare at all the millions here
Dm                 C (Riff 1)
We must have died alone' a long long time ago
C (Riff 1)   F (Riff 2)
Who knows? not me
Bbm             F (Riff 2)
We never lost control
C (Riff 1) F
Your'e face to face
Bbm              A
with the man who sold the world
_______________________________
Riff 1:
C
E|--------------------------------------------------|
B|--------------------------------------------------|
G|------------2-4-5---------------------------------|
D|------2-3-5---------------------------------------|
A|--3-5---------------------------------------------|
E|--------------------------------------------------|

Riff 2:
F
E|--------------------------------------------------|
B|------------3-5-6---------------------------------|
G|------2-3-5---------------------------------------|
D|--3-5---------------------------------------------|
A|--------------------------------------------------|
E|--------------------------------------------------|

Bowie David - Man Who Sold The World клип