» » Cradle Of Filth - Nymphetamine аккорды

Cradle Of Filth - Nymphetamine аккорды

Cradle Of Filth - Nymphetamine аккорды и слова для гитары. Другие песни с аккордами исполнителя Cradle Of Filth.

Intro and rythm
|--------------------------|
|--------------------------|
|--------------------------|
|--2----5------/7----2--|
|--2----5------/7----2--|
|--0----3---8----/5----0--|


|-------------------------------------------------------------------|
|--8-7-8-5-8-7-8-7-8-5-8-7-8-7-8---8-7-8-7-8---8-7-8-7-8------------|
|--------------------------------7-----------7-----------5----------|
|-------------------------------------------------------------------|
|-------------------------------------------------------------------|
|-------------------------------------------------------------------|

|---------------------------------------------|
|--8-7-8-7-8---8-7-8-7-8---8-7-8-10-8-7-8-5---|
|------------5-----------4--------------------|
|---------------------------------------------|
|---------------------------------------------|
|---------------------------------------------|

in the next part there is a second guitar while doing
the palm mute, i did not figure out.... sorry guys
|--------------------------------------------------------|
|--------------------------------------------------------|
|--------------------------------------------------------|
|--9999--/7777--9999--/5555--9999--/7777--/5555-

Cradle Of Filth - Nymphetamine клип