» » Brand New - Mix Tap аккорды

Brand New - Mix Tap аккорды

Brand New - Mix Tap аккорды и слова для гитары. Другие песни с аккордами исполнителя Brand New.

Tabbed by: Eric
Tuning:Half step down
h=hammer on
p=pull off
...=palm mute
Great song I think thats is right..at least it sounds right to me..enjoy

|-----------------------------------------|
|-----------------------------------------|
|-----2-----2-----------------------------|
|-----2-----2-----2h4p2-2h4p2-2h4p2p0-----|
|-0-0-0-0-0-0-0-0-------------------------|
|-----------------------------------------|
...   ...   ...

|-------------------------------|
|-------------------------------|
|-----2-----2-----4-6666-4-2-4--|
|-----0-----0-------------------|
|-0-0-0-0-0-0-0-0---------------|
|-------------------------------|
...   ...   ...

Brand New - Mix Tap клип