» » Eminem - Bitch Please 2 аккорды

Eminem - Bitch Please 2 аккорды

Eminem - Bitch Please 2 аккорды и слова для гитары. Другие песни с аккордами исполнителя Eminem.

Eminem - Bitch Please 2
Submitted By: rap_boy
EMail: [email protected]


------------------------------------------------------------------------------
---------------------6-------------------------6-----------------------6------
------------------------5-------------------------5-----------------------5---
-----3-----3--3------3-----------3-----3--3----3----------3-----3--3---3------
------------------------3-------------------------3-----------------------3---
-1---------------------------1------------------------1-----------------------


---------------------------------|--------------------------------------------
---------------------------------|--------------------------------------------
-------3---3----------6----6-----|--------------------------------------------
---------------------------------|--------------------------------------------
-1---1---1-----4---4-----4-------|--------------------------------------------
---------------------------------|--------------------------------------------

Eminem - Bitch Please 2 клип