» » Chevelle - Forfeit аккорды

Chevelle - Forfeit аккорды

Chevelle - Forfeit аккорды и слова для гитары. Другие песни с аккордами исполнителя Chevelle.

Author/Artist: Chevelle
Title: Forfeit
Album: Wonder Whats Next
Transcribed by: Skiz
Email: [email protected]

Tuning drop d down step and a half = BFBEGC

Intro/verse
C|------------------------------------------------------------------------------
G|------------------------------------------------------------------------------
E|------------------------------------------------------------------------------
B|------------------------------------------------------------------------------
F|------------------------------------------------------------------------------
B|-7-7-x-x-x-x-7-7-7-7-x-x-x-x-7-7-7-7-x-x-x-x-7-7-7-7--7-7-7-7-5-5-5-5--3-3----

C|------------------------------------------------------------------------------
G|------------------------------------------------------------------------------
E|------------------------------------------------------------------------------
B|------------------------------------------------------------------------------
F|------------------------------------------------------------------------------
B|-x-x-x-x-3-3-3-3-x-x-x-x-3-3-3-3-2-2-2-2--------------------------------------


Chorus 1              2
C|-----------------|------------------------------------------------------------
G|-----------------|------------------------------------------------------------
E|-----------------|------------------------------------------------------------
B|-------0-0-0-0---|--3-3-3-3-5-5-5-5-------------------------------------------
F|----0--0-0-0-0---|--3-3-3-3-5-5-5-5-------------------------------------------
B|-7b-0--0-0-0-0---|--3-3-3-3-5-5-5-5-------------------------------------------
15 x

Bridge
G|------------------------------------------------------------------------------
C|------------------------------------------------------------------------------
E|------------------------------------------------------------------------------
B|------------------------------------------------------------------------------
F|----------0-0-0-0-------------------------------------------------------------
B|-0-0-0-0--0-0-0-0-------------------------------------------------------------
pm        open


Song Order
Intro Verse 4x (pm)
Chorus(1)15x (2)1x
Verse 3x
Chorus(1)15x (2)1x
Verse 3x (use high pitched harmonics)
Bridge 15 (at end of seventh click pick real fast and go to next 8)
Chorus(1)15x (2)1x
Outro (hit bottom 3 strings twice open)

Chevelle - Forfeit клип