» » Black Crowes - Heavy аккорды

Black Crowes - Heavy аккорды

Black Crowes - Heavy аккорды и слова для гитары. Другие песни с аккордами исполнителя Black Crowes.

Song:Heavy
Artist:The Black Crowes
Album:By Your Side, released in Jan, of '99
Send any comments to [email protected]

Tuning:Open G(low to high, DGDGBD)

Intro/Verse:

D--------------------------------------------------
B--------------------------------------------------
G-4-4-4-4---4-4-4-4---4-4------------------6p4---4-
D-4-4-4-4---4-4-4-4---4-4------------4-6p4-----6---
G-4-4-4-4---4-4-4-4---4-4-7h8-4--7-8---------------
D--------------------------------------------------

Pre-Chorus:

D---------------------------
B---------------------------
G-7-7-7-7--0-0-0-0--7-7-7-7-
D-7-7-7-7--0-0-0-0--7-7-7-7-
G-7-7-7-7--0-0-0-0--7-7-7-7-
D---------------------------

Chorus(not the exact number of strums for
each chord, but you can figure that out):

D--------------------------------------------------------------
B--------------------------------------------------------------
G-0-0-0-0-0-7-7-7-7-7-2-2-2-2-2-5-5-0--5-5-0-0--5-5-0--5-5-0-0-
D-0-0-0-0-0-7-7-7-7-7-2-2-2-2-2-5-5-0--5-5-0-0--5-5-0--5-5-0-0-
G-0-0-0-0-0-7-7-7-7-7-2-2-2-2-2-5-5-0--5-5-0-0--5-5-0--5-5-0-0-
D--------------------------------------------------------------

That's it. I'm still working on the lead. More Crowes to come.


Black Crowes - Heavy клип