» » BisRock - Sine sine аккорды

BisRock - Sine sine аккорды

BisRock - Sine sine аккорды и слова для гитары. Другие песни с аккордами исполнителя BisRock.

Intro: D - B7 - E

For Acoutic Version:
D              B7
e|--------------------2----2----------|
B|----7--7--7---------------0---------|
G|----7--7--7-------2---2-------------|
D|----------------1-------------------|
A|----5--5--5-/-2-------2-------------|
E|------------------------------------|
E
e|--------------------------------|
B|--------------------------------|
G|--------------------------------|
D|-----------------------^2-------|
A|-----------0--2--4--5-----------|
E|--0--2--4-----------------------|

For rock version:
D              B7
e|--------------------------------|
B|------s----------4---s----------|
G|----7-t----------2---t----------|
D|----7-r----------4---r----------|
A|----5-u----------2---u----------|
E|------m--------------m----------|

E
e|--------------------------------|
B|--------------------------------|
G|--------------------------------|
D|-----------------------^2-------|
A|-----------0--2--4--5-----------|
E|--0--2--4-----------------------|

Verse1:
A         C#7              F#m
Sinesine wala tay laing lingaw
A7
Kandila luyo sa habol
D                  Dm
Katawang binayran og pisong kinawat
A                E
Sa gubaong pitakang lola
A          C#7
Anino sa mga artistang papel
A7
Gihinganlan tag si Pedro’g
D                   Dm
SabelSila’ng bida niadtong estorya
A                  E
Sa gugma nga way katumanan

Chorus:
A           C#7        F#m
Sine..sinesine sa bata pa
A7                  D
Di na unta matapos pa
C#m    /  F#m    /   Bm         E
Bisan pa man sa pagdagan sa panahon
A           C#7           F#m
Lantawon mga eksena nga molabay
A7                   D
Tanang tawo makasakay
C#m    /  F#m    /   Bm         E
Saksihan ta ang pagdagan sa panahon
D - B7 - E
panahon..

Verse2:
A         C#7              F#m
Sigesigeha lang imong paglakaw
A7
Ay’g kahadlok may kahayag
D                  Dm
Modan-ag sa dalang mangitngit
A                        E
Lakip na ang langit daw lapad nga adlaw
A         C#7              F#m
Ang kinabuhi sugilanong hiwi
A7
Kalipay kasakit ug kalami
D                  Dm
Silang bida niining salida
A                        E
Sa gugma nga way katumanan

Repeat Chorus

Addlib: A - C#7 - F#m - A7 - D - Dm - A - E

Repeat Chorus

BisRock - Sine sine клип