» » Eluveitie - Isara аккорды

Eluveitie - Isara аккорды

Eluveitie - Isara аккорды и слова для гитары. Другие песни с аккордами исполнителя Eluveitie.

GUITAR 1:
The first guitar is playing during the whole song.
The intro is played this way..
e|------2h3-2-----2h3-2-----2h3-2-----------
B|----0---------0---------0---------0-------
G|------------------------------------4h5-4-
D|--2---------2---------2---------2---------
A|------------------------------------------
E|------------------------------------------

e|------2h3-2-----2h3-2-----2h3-2-----2h3-2-|
B|----0---------0---------0---------0-------|
G|------------------------------------------|
D|--2---------2---------2---------2---------|
A|------------------------------------------|
E|------------------------------------------|

e|-------0-------0-----2-3-----2-3----------|
B|-----3-------3----------------------------|
G|---0-------0-------2-------2--------------|
D|-----------------0-------0----------------|
A|-3-------3--------------------------------|
E|------------------------------------------|

GUITAR 2:
The second guitar comes in at 0:59.
Just a few seconds before the third guitar.
Since then, the second guitar is playing this
for the rest of the song!
Just watch and listen to the vdeo to get the timming.
e|-5h7-5-------------------------------5h7-5----------------------------|
B|----------3h5-3----1h3-0----0h1-3-------------3h5-3----1h3-0----6h7-8-|
G|----------------------------------------------------------------------|
D|----------------------------------------------------------------------|
A|----------------------------------------------------------------------|
E|----------------------------------------------------------------------|

GUITAR 3:
This is the last guitar. Starts at 1:11 and ends at 2:23.
Its really simple. Just 3 chords: Em C and D.
Listen to the song to get the rhythm.

Eluveitie - Isara клип