» » Black Flag - Loose Nut аккорды

Black Flag - Loose Nut аккорды

Black Flag - Loose Nut аккорды и слова для гитары. Другие песни с аккордами исполнителя Black Flag.

from:mike abraham ([email protected])

Loose Nut

loose nut runnin through my head

|-------------------------------------|
|-------------------------------------|
|-------------------------------------|
|-2-2---2-2-----5----5-----4--4-4-4---|
|-2-2---2-2-----5----5-----4--4-4-4---|
|-0-0---0-0-----3----3-----2--2-2-2---|

like a bolt a lightin runnin through my head     L00SE NUT!
|-------------------------------------------------|
|-------------------------------------------------|
|-------------------------------------------------|
|-4-4-4-4-4--------------7-7---7---6--------2-2---|
|-4-4-4-4-4--------------7-7---7---6--------2-2---|
|-2-2-2-2-2--------------5-5---5---4--------0-0---|

Black Flag - Loose Nut клип