» » Cheap Trick - Heaven Tonight аккорды

Cheap Trick - Heaven Tonight аккорды

Cheap Trick - Heaven Tonight аккорды и слова для гитары. Другие песни с аккордами исполнителя Cheap Trick.

Date: Wed, 20 Dec 1995 18:41:34 -0500 (EST)
From: Glen Norman Pavan
Subject: replace: cheap_trick: heaven_tonight.btab

artist:  Cheap Trick
title:  Heaven Tonight
album:  Heaven Tonight
tuning:  standard

intro/main riff:

D---------------------------3-5------------|
A-----3-------3-----3--5--6--------6-5-3---|
E---3-------3-----3------------------------|

chorus
A-----------3-----------6-5-3-----3------3-|
E---3-1-------1-----------------3------3---|

chorus again...  stay on G instead of the 6-5-3

verse

chorus

first bridge

G--------------------------------3----1----------1-3------|
D------------------------2-3----5--------5-3----------5-3-|
A---------------1---3-4-----------------------------------|
E--3---1-3-4--3-------------------------------------------|

chorus

second bridge
G

(last time)
Eb   D    c

verse

repeat verse  to fade

questions, comments to [email protected]
-I'm here, I'm queer, I play 5-string bass

Cheap Trick - Heaven Tonight клип