» » Black Flag - Revenge аккорды

Black Flag - Revenge аккорды

Black Flag - Revenge аккорды и слова для гитары. Другие песни с аккордами исполнителя Black Flag.

artist: black flag
song: revenge

From: [email protected]


It's not my imagination,
I've got a gun on my back!

G|-------------------|-------------------|-----------------|-----------------|
D|-------------------|-------------------|-----------------|-----------------|
A|-------------------|-------------------|-----7-----------|-----------------|
E|-7-7-7-7-7-7-7-7---|-7-7-7-7-7-7-7-7---|-4-------7---2---|-4-4-4-4-4-4-4-4-|

G| --------------|--------------|--------------|--------------|
D| --------------|--------------|--------------|--------------|
A| --------------|--------------|--------------|--------------|
E| -0--0--0--0---|-2--2--2--2---|-5--5--5--5---|-2--2--2--2---|

G| --------------|-------------------|-------------------|
D| --------------|-------------------|-------------------|
A| --------------|-------------------|-------------------|
E| -0--0--0--0---|-4-4-4-4-4-4-4-4---|-4-4-4-4-4-4-4-4---|

***Repeat this whole thing three times***

Black Flag - Revenge клип