» » Children Of Bodom - Lil Blood Red Riding Hood аккорды

Children Of Bodom - Lil Blood Red Riding Hood аккорды

Children Of Bodom - Lil Blood Red Riding Hood аккорды и слова для гитары. Другие песни с аккордами исполнителя Children Of Bodom.

Chiilren of Bodom
Lil Blood Red Riding Hood
HateCrew DeathRoll
Tabbed By Kevin Cruz

Tune all Strings down one Whole Step: D A F G C D

1.               2.
D:---------------------------------------------||---------------||-------|
A:---------------------------------------------||---------------||-------|
F:-999-101010-77-999-121212-77-999-101010-77-9-||---------------||-4-5-7-|
G:-999-101010-77-999-121212-77-999-101010-77-9-||---------------||-4-5-7-|
C:-777-8-8-8--55-777-101010-55-777-8-8-8--55-7-||---------------||-2-3-5-|
D:---------------------------------------------||-0-1-0-1-0-1-0-||-------|
. . . . . . .

D:---------------------------------||----------------------------------|
A:---------------------------------||----------------------------------|
F:---------------------------------||----------------------------------|
G:-----------------------5---3333--||-------------------5---7---10---9-|
C:---7---7---7---7---7---7---5555--||---7---7---7---7------------------|
D:-0---0---0---0---0---0---0-------||-0---0---0---0---0---0---0----0---|


I'LL WRITE THE REST SOON

Children Of Bodom - Lil Blood Red Riding Hood клип