» » Chevelle - Its No Good аккорды

Chevelle - Its No Good аккорды

Chevelle - Its No Good аккорды и слова для гитары. Другие песни с аккордами исполнителя Chevelle.

Tuning: A, C, or D - I like C the best but that's how my mom taught me
this song to me so I'm biased.

e|---------------------------------------------------------------------------|
B|---------------------------------------------------------------------------|
G|---------7--7--7------7--7--7------7--7--7-------7--7--7-------------------|
D|-------5---5--5------5--5--5------5--5--5-------5--5--5--------------------|
A|----7-----7--7----7---7---7----7----7--7-----7----7--7---------------------|
E|---------------------------------------------------------------------------|

e|---------------------------------------------------------------------------|
B|---------------------------------------------------------------------------|
G|----14~~~~~17--10~~~~~~--14--7~~~~~--10-3-2----------------------------|
D|---------------------------------------------------------------------------|
A|---------------------------------------------------------------------------|
E|---------------------------------------------------------------------------|

e|---------------------------------------------------------------------------|
B|---------------------------------------------------------------------------|
G|---------------------------------------------------------------------------|
D|----8-8-8-8---6-6-6-6------------------------------------------------------|
A|----6-6-6-6---4-4-4-4---9-9-9-9-9-9-9--6-6---------------------------------|
E|------------------------9-9-9-9-9-9-9--6-6---------------------------------|

Mute that janks.

e|---------------------------------------------------------------------------|
B|---------------------------------------------------------------------------|
G|---------------------------------------------------------------------------|
D|----8------------8-------------8-------------8-----------------------------|
A|----6------------6-------------6-------------6-----------------------------|
E|---------------------------------------------------------------------------|


| /  slide up
|   slide down
| h  hammer-on
| p  pull-off
| ~  vibrato
| +  harmonic
| x  Mute note

===============================================================================

Chevelle - Its No Good клип