» » Brand New - Okay I Believe You But My Tommy Gun Dont аккорды

Brand New - Okay I Believe You But My Tommy Gun Dont аккорды

Brand New - Okay I Believe You But My Tommy Gun Dont аккорды и слова для гитары. Другие песни с аккордами исполнителя Brand New.

                  Brand New - Ok I believe you, but my tommy gun dont
/=Slide
*=Palm Mute

Intro/Verse Clean (Guitar 1)               (Guitar 2)
eb|---------------------------------------|---------------------------------------------
Bb|---------------------------------------|---------------------------------------------
Gb|---------------------------------------|---------------------------------------------
Db|-9-9-9-9-9-9-9-9/12-12-12-12-----------|---5---5---5---5----9---9---9---9------------
Ab|-7-7-7-7-7-7-7-7/12-10-10-10--10-10-10-|-7---7---7---7---10--10--10--10----7--7--7--7
Eb|-------------------------------8--8--8-|----------------------------------8--8--8--8
***************************   *******

Pre-chorus Clean
eb|-----------------------------------------------------------------I------------------|
Bb|-----------------------------------------------------------------I------------------|
Gb|-----------------------------------------------------------------I------------------|
Db|--------------------------------------1212121212121212--99999999-I------------------|
Ab|1212121212121212-10101010101010101010-1010101010101010--77777777-I-1212121212121212-|
Eb|1010101010101010--8-8-8-8-8-8-8-8-8-8----------------------------I-1010101010101010-|
**************** ******************** ****************  ********   ****************
Chorus (x2)
eb|--------------------------------|
Bb|--------------------------------|
Gb|---------5---------------5------|
Db|-5-------5-(4x)--2-------5-(4x)-|
Ab|-5-(4x)--3-------2-(4x)--3------|
Eb|-3---------------0--------------|

Interlude
eb|----------------------------------------------------------------|
Bb|----------------------------------------------------------------|
Gb|---9-----------9-----------9-----------9------------------------|
Db|2~-x--2-2~--2~-x--2-2~--2~-x--2-2~--2~-x--2-2~------------------|
Ab|2~-7--2-2~--2~-7--2-2~--2~-7--2-2~--2~-7--2-2~------------------|
Eb|0~----0-0~--0~----0-0~--0~----0-0~--0~----0-0~------------------|

Ending
Eb|----------------------------------------------------------------|
Bb|----------------------------------------------------------------|
Gb|---9-----------------------9------------------------------------|
Db|2~-x--------------------2~-x------------------------------------|
Ab|2~-7-----3--------------2~-7-----3------------------------------|
Eb|0~---2-3---3-2-3-1-3----0~---2-3---3----------------------------|
***************         *******

Brand New - Okay I Believe You But My Tommy Gun Dont клип