» » Children Of Bodom - The Nail аккорды

Children Of Bodom - The Nail аккорды

Children Of Bodom - The Nail аккорды и слова для гитары. Другие песни с аккордами исполнителя Children Of Bodom.

                      Children of Bodom: The Nail


Riff 1
------------------------------------------------------------------------
------------------------------------------------------------------------
------------------------------------------------------------------------
7--7--7--7--7--10--10--10--7--7--7--5--7--3-----------------------------
5--5--5--5--5--8---8---8---5--5--5--3--5--1-----------------------------
------------------------------------------------------------------------



------------------------------------------------------------------------
------------------------------------------------------------------------
------------------------------------------------------------------------
------------------7--7--7--7--7--10--10--10-----------------------------
------------------5--5--5--5--5--8---8---8------5--5--7--7--9-----------
------------------------------------------------3--3--5--5--7-----------

Children Of Bodom - The Nail клип