» » Chevelle - Prove To You аккорды

Chevelle - Prove To You аккорды

Chevelle - Prove To You аккорды и слова для гитары. Другие песни с аккордами исполнителя Chevelle.

Author/Artist: Chevelle
Title: Prove to You
Album: Point #1
Transcribed by: Wes Dolezal
Email: [email protected]

Tune to Drop D.  Not 100% correct, but close enough.

-|--------------------------------------------------------|-------------------
-|--------------------------------------------------------|-------------------
-|-10-10-10-10-10-10-10-10-10-10-1097-7-7-7-7-7-7-7-7-7-|-------------------
-|--------------------------------------------------------|-------------------
-|--8--8--8--8--8--8--8--8--8--8--8-7-5-5-5-5-5-5-5-5-5-5-|-------------------
-|--------------------------------------------------------|-------------------
Intro. (2x)

-|--------------------------------------------------------|-------------------
-|--------------------------------------------------------|-------------------
-|-10-10-10-10-10-10-10-10-10-105-5-5-5-5----------------|-------------------
-|-----------------------------------------5-5-5----------|-------------------
-|--8--8--8--8--8--8--8--8--8--8-3-3-3-3-3----------------|-------------------
-|-----------------------------------------5-5-5----------|-------------------
cont...

-|------------------------------------------------|-------|-------------------
-|------------------------------------------------|-------|-------------------
-|------------------------------------------------|-------|-------------------
-|-0--3-3-3-3-3-3-3-3-4---------3-3-3-3-3-3-3-3-4-|-------|-------------------
-|-0--3-3-3-3-3-3-3-3-4---------3-3-3-3-3-3-3-3-4-|---5^--|-------------------
-|-0--3-3-3-3-3-3-3-3-4--0-0-0--3-3-3-3-3-3-3-3-4-|-5^--5^|-------------------
Main Riff.           -pm---

-|--------------------------------------------------------|-------------------
-|--------------------------------------------------------|-------------------
-|--------------------------------------------------------|-------------------
-|-3-3-3-3-3-3-3-3-4--------0-0-0-0-0-0-0-0---------------|-------------------
-|-3-3-3-3-3-3-3-3-4--------0-0-0-0-0-0-0-0---------------|-------------------
-|-3-3-3-3-3-3-3-3-4-0-0-0--0-0-0-0-0-0-0-0---------------|-------------------
Verse             -pm--

-|-----------------------------x-x-x-x-x-x-x-x-x----------|-------------------
-|-----------------------------x-x-x-x-x-x-x-x-x----------|-------------------
-|-----------------------------x-x-x-x-x-x-x-x-x----------|-------------------
-|-0--3-3-3-3-3--0--3-3-3-3-3--x-x-x-x-x-x-x-x-x----------|-------------------
-|-0--3-3-3-3-3--0--3-3-3-3-3--x-x-x-x-x-x-x-x-x----------|-------------------
-|-0--3-3-3-3-3--0--3-3-3-3-3--x-x-x-x-x-x-x-x-x----------|-------------------
Chorus

Chevelle - Prove To You клип