» » Eskimo Toccata - Bubblegum аккорды

Eskimo Toccata - Bubblegum аккорды

Eskimo Toccata - Bubblegum аккорды и слова для гитары. Другие песни с аккордами исполнителя Eskimo Toccata.

BUBBLEGUM
BY ESKIMO TOCCATA (GLYNNY)
TABBED BY BRYSON GORE

INTRO
|-----------------------------------------------------------------|
|-----------------------------------------------------------7-6---|
|-5-5-5-2-3-3-3-2-0-0-0-2-3-3-3-2-0-0-0-2-3-3-3-2---------5-----5-|
|-------------------------------------------------3-3-3-2---------|

VERSE
|----------------------|
|----------------------|
|-5---3-0---3-0--3---5-|
|------------------3---|

|----------------------|
|----------------------|
|-5---3-0---3-0--3-5-3-|
|----------------------|

BRIDGE
|--------------------------------------------------|
|--------------------------------------------------|
|---------------------------7-7-3---5-5-3--3--2--3-|
|-3-3-2---5-5-3--5--3--2---------------------------|

|-------------------------------|
|-------------------------------|
|--------------2-2-2--2--2----3-|
|-3-3-3--3--3-------------------|

CHORUS
|-------------------------------------------------------------|
|-------------------------------------------------------------|
|-3---3-3-------3-3-3-3-------5-5-5-5-5-5-5-5-3-3-3-3-0-0-0-0-|
|---------3-3-3---------3-3-3---------------------------------|

|-----------------------------------------------------------------|
|-----------------------------------------------------------------|
|-2-2-2-2-2-2-2-2-5-5-5-5-5-5-5-5-5-5-5-5-5-5-5-5-3-3-3-3-0-0-0-0-|
|-----------------------------------------------------------------|

KEY-CHANGE CHORUS
|-------------------------------------------------------------|
|-----------------------------4-4-4-4-4-4-4-4-----------------|
|-7---7-7-------7-7-7-7-----------------------7-7-7-7-4-4-4-4-|
|---------7-7-7---------7-7-7---------------------------------|

|-----------------------------------------------------------------|
|-----------------4-4-4-4-4-4-4-4-4-4-4-4-4-4-4-4-----------------|
|-6-6-6-6-6-6-6-6---------------------------------7-7-7-7-4-4-4-4-|
|-----------------------------------------------------------------|

Eskimo Toccata - Bubblegum клип