» » Eskimo Toccata - Sometimes Always Never Happens аккорды

Eskimo Toccata - Sometimes Always Never Happens аккорды

Eskimo Toccata - Sometimes Always Never Happens аккорды и слова для гитары. Другие песни с аккордами исполнителя Eskimo Toccata.

SOMETIMES ALWAYS NEVER HAPPENS
BY ESKIMO TOCCATA (GLYNNY)
TABBED BY BRYSON GORE

VERSE
|---------------------------------|
|---------------------------------|
|-5-7-5-3-3-3-3-3---------0-0-3-3-|
|-----------------1-1-3-3---------|

|---------------------------------|
|---------------------------------|
|-7-8-7-5-5-5-5-5---------3-3-5-5-|
|-----------------1-1-3-3---------|

|---------------------------------|
|---------------------------------|
|---------------------------------|
|-1-1-1-1--1--1-1-3-3-3-3--3--3-3-|

|---------------------------------|
|---------------------------------|
|-5-7-5-3-3-3-3-3---------0-0-3-3-|
|-----------------1-1-3-3---------|

PRE CHORUS
|---------------------------------|
|---------------------------------|
|-2-2---0---0-0---0-----3--2------|
|-----3---------2-------------3---|

|---------------------------------|
|---------------------------------|
|-2-2---0--------3-3-3-3-3-3-3-3-|
|-----3---------------------------|

CHORUS
|--------------------------------------------------|
|--------------------------------------------------|
|-0>-2-3---2>-5-3---5>-3-2---0-0---0-0---0-0---0-0-|
|--------------------------------------------------|

|--------------------------------------------------|
|--------------------------------------------------|
|-8>-5-3---5>-3-2--0>-2-3----------------2--2----0-|
|-------------------------3--------------------3---|

THATS IT, ENJOY

Eskimo Toccata - Sometimes Always Never Happens клип