» » Cream - Tales Of Brave Ulysses аккорды

Cream - Tales Of Brave Ulysses аккорды

Cream - Tales Of Brave Ulysses аккорды и слова для гитары. Другие песни с аккордами исполнителя Cream.

		TALES ОF BRAVE ULYSSES
By: Cream
(Clapton, Sharp)
From the release:  DISRAELI GEARS
tabbed by: Joshua N. Schwiesow

This is a pretty easy song, listen to the disc to get the timing right...
There are only 3 main riffs, so when you're figuring out timing, placement
will be very obvious


G----------------------
D----------------------
A--5---5-3---3-2---2-1-
E----------------------
repeat a bunch of times during intro, verse


G----------------------------------
D--0-0-----------------------------
A---------3-3-3----2-2---2~~~3-h5--
E----------------------------------
repeat


G-------------------------------------------------
D-------------------------------------------------
A-0-0-0-0-0-0---5-3--0-0-0-0-0-0--5-3-5(hold)~~~--
E-------------------------------------------------
repeat/back to beginning.


Joshua N. Schwiesow
[email protected]
https://www.execpc.com/~jhschwie
-( О]]]]О )-

Cream - Tales Of Brave Ulysses клип