» » Axel Rudi Pell - Magic аккорды

Axel Rudi Pell - Magic аккорды

Axel Rudi Pell - Magic аккорды и слова для гитары. Другие песни с аккордами исполнителя Axel Rudi Pell.

[----------------------------------------------------------------------------
----------------------------------------------------------------------------
--6/8--88--6/8--8888-----------6/8--88--6/8--8888--6--4---------------------
--6/8--88--6/8--8888-----------6/8--88--6/8--8888--6--4---------------------
--4/6--66--4/6--6666---6-9-8---4/6--66--4/6--6666--4--2---------------------
-----------------------------9----------------------------------------------]

This is a main riff a:
[---------------------------------------------------------------------------
---------------------------------------------------------------------------
--6/8--88--6/8--8888-----------6/8--88--6/8-----------------------6--------
--6/8--88--6/8--8888-----------6/8--88--6/8-----------------------4--------
--4/6--66--4/6--6666---6-9-8---4/6--88--4/6--------2------2----------------
-----------------------------9---------------2-4-5---5-4--4----------------]

This is a main riff b:
[---------------------------------------------------------------------------
---------------------------------------------------------------------------
--8-----------6---------8------6------4------------------------------------
--8-----------6---------8------6------4------------------------------------
--6-----------4---------6------4------2------------------------------------
---------------------------------------------------------------------------]

song...                Then main riff a
[---------------------------------------------------------------------------
---------------------------------------------------------------------------
----------------3--4--6-------8-----8-----8------888---666---444-----------
--6---xx---6----3--4--6-------8-----8-----8------888---666---444-----------
--6---xx---6----1--2--4---6-6-6-6-6-6--x--6------666---444---222-----------
--4---xx---4---------------------------------------------------------------]

don't walk alone...    xxx  xxx  it's magic....
[------------------------------------------------------------------------------
------------------------------------------------------------------------------
------------------------------------------------------------------------------
------------------------------------------------------------------------------
------------------------------------------------------------------------------
------------------------------------------------------------------------------]

Дальше все повторяется

Axel Rudi Pell - Magic клип