» » Эшелон - На Дальнем Востоке аккорды

Эшелон - На Дальнем Востоке аккорды

Эшелон - На Дальнем Востоке аккорды и слова для гитары. Другие песни с аккордами исполнителя Эшелон.

Вступление:
Am                    Dm          Em         Am
E|---------0----0-------------------0--------0---------------------|
B|---------1--------3-1----0--1--3-----3--1--0----------1----1--0--|
G|---------2---------------------2-----------0----------2----------|
D|---2--2--2---------------------0-----------2----2--2--2----------|
A|---------0---------------------0-----------2----------0----------|

H7
E|----------------------|
B|--0----1----0---------|
G|--2--------------2----|
D|--1-------------------|
A|--2-------------------|

Em           H7        Em
На восток мы завтра улетаем -
H7         Em
Самолет уходит поутру.
G                 D
Там течет Амур - река родная,
G        Am     H7
К нашей Волге, к нашему Днепру.

Am       D
Летим мы товарищ,
G       C
Дорогой высокой:
Am           H7     Em      E
Наш путь над тайгою проле-о-о-г.
Am         D
Байкал мой глубокий,
G        C
Амур мой широкий:
Am           H7        Em
Мой дальний, советский Восток.

Край могучей, радостной работы:
Комсомольский, смелый, молодой.
Край, согретый Сталинской заботой,
Озаренный Красною звездой!

Край ты наш, далекий и родимый...
Если грянут грозные бои -
Никому тебя не отдадим мы,
Часовые верные твои!

На Восток уходят самолеты,
Танков ход, нельзя остановить.
В бой пойдут танкисты и пилоты -
На чужой земле врага разить!

С красным знаменем Страны Советов,
Мы пойдем на запад и восток.
Чтоб помочь боротся братьям бедным,
Против царства классовых врагов!

Припев

Эшелон - На Дальнем Востоке клип