» » Crosby Stills Nash And Young - You Dont Have To Cry аккорды

Crosby Stills Nash And Young - You Dont Have To Cry аккорды

Crosby Stills Nash And Young - You Dont Have To Cry аккорды и слова для гитары. Другие песни с аккордами исполнителя Crosby Stills Nash And Young.

#----------------------------------PLEASE NOTE---------------------------------#
#This file is the author's own work and represents their interpretation of the #
#song. You may only use this file for private study, scholarship, or research. #
#------------------------------------------------------------------------------##
From: Harlan L Thompson

YOU DON'T HAVE TO CRY- Crosby, Stills and Nash

TUNING: D A D G B D

INTRO

F               C
In the morning when you rise
G7(no3)                        D7(no3)
Do you think of me and how you left me crying?
Are you thinking of telephones
And managers, and where you got to be at noon
You are living a reality I left years ago
It quite nearly killed me
In the long run, it will make you cry
Make you crazy and old before your time
And the difference betweem me and you
I won't argue right or wrong
But I have time to cry my baby

CHORUS:
D7(no3)
You don't have to cry, I said cry my baby
You don't have to cry, I said cry my baby
RIFF
You don't have to cry

REPEAT VERSE AND CHORUS


INTRO:
D ---0--0-0-0-0-----0-0---0-0-----------------|
B ---3--3---3-------3-----3---------------0h1-|
G ---2------2-------------2---------------0h2-|
D -0--------------------0---------------0-----|
A --------------0h3-----------------0h3-------|
D ----------------------------0-0h3-----------|

CHORDS:
D(no3):  x x 0 3 2 0   F:       3 x 3 2 1 0   C: x 3 2 0 1 x
G7(no3): 5 x 0 0 3 3   D7(no3): 0 0 0 2 1 0

RIFF:
(D7)           (C)                  (D)
D -3s4-7-7-7s9-7-5---------------------------|
B -----------------5-3-------0-3-------------|
G ---------------------1s2-4-----4-2---------|
D -----------------------------------4-2-0---|
A -------------------------------------------|
D ---0-----------------------0---------------|

Crosby Stills Nash And Young - You Dont Have To Cry клип