» » Wallflowers - The Difference аккорды

Wallflowers - The Difference аккорды

Wallflowers - The Difference аккорды и слова для гитары. Другие песни с аккордами исполнителя Wallflowers.

		The Difference by THE WALLFLOWERS
Album:Bringing Down the Horse
This is the only non-metal band I like, and that is because their bassist
kicks ass. Here it goes:
intro/main riff
|-5---------------------5--------|
|---8------5-6-----5-6---8-5-----|
|-------6-8-----6-8----------6---|
|--------------------------------|

|-5-55----------------5-55------------------|
|-----8-88-6-66-----5------8-88-6-66------5-|
|--------------6-6-8----------------6-6-8---|
|-------------------------------------------|

|-5-55--------------------8-10-8------|
|-----8-88-6-66-8-8-8-8-10-------10-8-|
|-------------------------------------|
|-------------------------------------|

|-----------------------------------------------------------------|
|-6-6-6-6-6-6-6-6-5-5-5-5-5-5-5-5-3-3-3-3-3-3-3-3-8-8-8-8-8-8-8-8-|
|-----------------------------------------------------------------|
|-----------------------------------------------------------------|

Listen to the song and the timing and order becomes clear.-thanx-Jeff Peters
e-mail

Wallflowers - The Difference клип