» » Pink Floyd - The Last Few Bricks аккорды

Pink Floyd - The Last Few Bricks аккорды

Pink Floyd - The Last Few Bricks аккорды и слова для гитары. Другие песни с аккордами исполнителя Pink Floyd.

PINK FLOYD
THE LAST FEW BRICKS


G||---------------------||----------------------||---------------------||
D||*-------------------*||----------------------||*-------------------*||
A||*--5----------------*||--5----3----1----0----||*-------------------*||
D||---------------------||----------------------||---5-----------------||


2x
--------------------||----------------------||-------------------|
--------------------||*--------------------*||-------------------|
--------------------||*--------------------*||-------------------|
--5--------------5--||---7--------------5---||--7----------------|



-----------------------|-----------------------|----------------------|
-----------------------|-----------------------|----------------------|
--5----5----5----5--3--|--1----1----1----1--0--|----------------------|
-----------------------|-----------------------|--5----5----5----5----|



----------------------|-------------------|------------------|
----------------------|-------------------|------------------|
--3----3----3----3----|-------------------|------------------|
----------------------|--0----------------|------------------|



------------------|------------------|-------------------|
------------------|------------------|-------------------|
------------------|------------------|--2----------------|
------------------|------------------|-------------------|



------------------|------------------|------------------|
------------------|------------------|------------------|
------------------|------------------|------------------|
------------------|------------------|------------------|



-------------------|------------------|------------------|
-------------------|------------------|------------------|
-------------------|------------------|------------------|
--6----------------|------------------|------------------|



------------------|-------------------|------------------|
------------------|-------------------|------------------|
------------------|-------------------|------------------|
------------------|--3----------------|------------------|


3x
------------------|------------------||------------------------||
------------------|------------------||*----------------------*||
------------------|------------------||*----------------------*||
------------------|------------------||---0----0----0----0-----||


3x                        3x
------------------------||------------------------||
*----------------------*||*----------------------*||
*--2----2----2----2----*||*----------------------*||
------------------------||---6----6----6----6-----||


3x                                          3x
------------------------||-------------5--------|-------------------||
*----------------------*||*-------7-------------|------------------*||
*----------------------*||*--5------------------|------------------*||
---3----3----3----3-----||----------------------|-------------------||



--------------------|------------------|-------------------|
*-------------------|------------------|-------------------|
*--0----------------|------------------|-------------------|
--------------------|------------------|--2----------------|



-------------------||-------------------|-------------------|
------------------*||-------------------|-------------------|
------------------*||-------------------|-------------------|
-------------------||--0----------------|--2----------------|



-------------------|-------------------|-------------------|
-------------------|-------------------|-------------------|
-------------------|-------------------|-------------------|
--3----------------|--5----------------|--7----------------|



--------------------------------------|-----------------------------||
--------------------------------------|--7--5-----------------------||
--------------------------------------|--------6--5--4--3--0--------||
--7--7--7--7--7--7--7--7--7--7--7--7--|-----------------------------||

tabbed by joseph post
[email protected]

Pink Floyd - The Last Few Bricks клип